  0
SECTION
  2
HEADER
  9
$ACADVER
  1
AC1024
  9
$ACADMAINTVER
 70
     6
  9
$DWGCODEPAGE
  3
UNDEFINED
  9
$INSBASE
 10
0.0
 20
0.0
 30
0.0
  9
$EXTMIN
 10
1.000000000000000E+20
 20
1.000000000000000E+20
 30
1.000000000000000E+20
  9
$EXTMAX
 10
-1.000000000000000E+20
 20
-1.000000000000000E+20
 30
-1.000000000000000E+20
  9
$LIMMIN
 10
0.0
 20
0.0
  9
$LIMMAX
 10
12.0
 20
9.0
  9
$ORTHOMODE
 70
     0
  9
$REGENMODE
 70
     1
  9
$FILLMODE
 70
     1
  9
$QTEXTMODE
 70
     0
  9
$MIRRTEXT
 70
     1
  9
$LTSCALE
 40
1.0
  9
$ATTMODE
 70
     1
  9
$TEXTSIZE
 40
0.2
  9
$TRACEWID
 40
0.05
  9
$TEXTSTYLE
  7
Standard
  9
$CLAYER
  8
0
  9
$CELTYPE
  6
ByLayer
  9
$CECOLOR
 62
   256
  9
$CELTSCALE
 40
1.0
  9
$DISPSILH
 70
     0
  9
$DIMSCALE
 40
1.0
  9
$DIMASZ
 40
0.18
  9
$DIMEXO
 40
0.0625
  9
$DIMDLI
 40
0.38
  9
$DIMRND
 40
0.0
  9
$DIMDLE
 40
0.0
  9
$DIMEXE
 40
0.18
  9
$DIMTP
 40
0.0
  9
$DIMTM
 40
0.0
  9
$DIMTXT
 40
0.18
  9
$DIMCEN
 40
0.09
  9
$DIMTSZ
 40
0.0
  9
$DIMTOL
 70
     0
  9
$DIMLIM
 70
     0
  9
$DIMTIH
 70
     1
  9
$DIMTOH
 70
     1
  9
$DIMSE1
 70
     0
  9
$DIMSE2
 70
     0
  9
$DIMTAD
 70
     0
  9
$DIMZIN
 70
     0
  9
$DIMBLK
  1

  9
$DIMASO
 70
     1
  9
$DIMSHO
 70
     1
  9
$DIMPOST
  1

  9
$DIMAPOST
  1

  9
$DIMALT
 70
     0
  9
$DIMALTD
 70
     2
  9
$DIMALTF
 40
25.4
  9
$DIMLFAC
 40
1.0
  9
$DIMTOFL
 70
     0
  9
$DIMTVP
 40
0.0
  9
$DIMTIX
 70
     0
  9
$DIMSOXD
 70
     0
  9
$DIMSAH
 70
     0
  9
$DIMBLK1
  1

  9
$DIMBLK2
  1

  9
$DIMSTYLE
  2
Standard
  9
$DIMCLRD
 70
     0
  9
$DIMCLRE
 70
     0
  9
$DIMCLRT
 70
     0
  9
$DIMTFAC
 40
1.0
  9
$DIMGAP
 40
0.09
  9
$DIMJUST
 70
     0
  9
$DIMSD1
 70
     0
  9
$DIMSD2
 70
     0
  9
$DIMTOLJ
 70
     1
  9
$DIMTZIN
 70
     0
  9
$DIMALTZ
 70
     0
  9
$DIMALTTZ
 70
     0
  9
$DIMUPT
 70
     0
  9
$DIMDEC
 70
     4
  9
$DIMTDEC
 70
     4
  9
$DIMALTU
 70
     2
  9
$DIMALTTD
 70
     2
  9
$DIMTXSTY
  7
Standard
  9
$DIMAUNIT
 70
     0
  9
$DIMADEC
 70
     0
  9
$DIMALTRND
 40
0.0
  9
$DIMAZIN
 70
     0
  9
$DIMDSEP
 70
    46
  9
$DIMATFIT
 70
     3
  9
$DIMFRAC
 70
     0
  9
$DIMLDRBLK
  1

  9
$DIMLUNIT
 70
     2
  9
$DIMLWD
 70
    -2
  9
$DIMLWE
 70
    -2
  9
$DIMTMOVE
 70
     0
  9
$DIMFXL
 40
1.0
  9
$DIMFXLON
 70
     0
  9
$DIMJOGANG
 40
0.7853981633974483
  9
$DIMTFILL
 70
     0
  9
$DIMTFILLCLR
 70
     0
  9
$DIMARCSYM
 70
     0
  9
$DIMLTYPE
  6

  9
$DIMLTEX1
  6

  9
$DIMLTEX2
  6

  9
$DIMTXTDIRECTION
 70
     0
  9
$LUNITS
 70
     2
  9
$LUPREC
 70
     4
  9
$SKETCHINC
 40
0.1
  9
$FILLETRAD
 40
0.5
  9
$AUNITS
 70
     0
  9
$AUPREC
 70
     0
  9
$MENU
  1
.
  9
$ELEVATION
 40
0.0
  9
$PELEVATION
 40
0.0
  9
$THICKNESS
 40
0.0
  9
$LIMCHECK
 70
     0
  9
$CHAMFERA
 40
0.5
  9
$CHAMFERB
 40
0.5
  9
$CHAMFERC
 40
1.0
  9
$CHAMFERD
 40
0.0
  9
$SKPOLY
 70
     0
  9
$TDCREATE
 40
2457842.722905081
  9
$TDUCREATE
 40
2457842.681238426
  9
$TDUPDATE
 40
2457842.722905081
  9
$TDUUPDATE
 40
2457842.681238426
  9
$TDINDWG
 40
0.0000000116
  9
$TDUSRTIMER
 40
0.0000000116
  9
$USRTIMER
 70
     1
  9
$ANGBASE
 50
0.0
  9
$ANGDIR
 70
     0
  9
$PDMODE
 70
     0
  9
$PDSIZE
 40
0.0
  9
$PLINEWID
 40
0.0
  9
$SPLFRAME
 70
     0
  9
$SPLINETYPE
 70
     6
  9
$SPLINESEGS
 70
     8
  9
$HANDSEED
  5
4D
  9
$SURFTAB1
 70
     6
  9
$SURFTAB2
 70
     6
  9
$SURFTYPE
 70
     6
  9
$SURFU
 70
     6
  9
$SURFV
 70
     6
  9
$UCSBASE
  2

  9
$UCSNAME
  2

  9
$UCSORG
 10
0.0
 20
0.0
 30
0.0
  9
$UCSXDIR
 10
1.0
 20
0.0
 30
0.0
  9
$UCSYDIR
 10
0.0
 20
1.0
 30
0.0
  9
$UCSORTHOREF
  2

  9
$UCSORTHOVIEW
 70
     0
  9
$UCSORGTOP
 10
0.0
 20
0.0
 30
0.0
  9
$UCSORGBOTTOM
 10
0.0
 20
0.0
 30
0.0
  9
$UCSORGLEFT
 10
0.0
 20
0.0
 30
0.0
  9
$UCSORGRIGHT
 10
0.0
 20
0.0
 30
0.0
  9
$UCSORGFRONT
 10
0.0
 20
0.0
 30
0.0
  9
$UCSORGBACK
 10
0.0
 20
0.0
 30
0.0
  9
$PUCSBASE
  2

  9
$PUCSNAME
  2

  9
$PUCSORG
 10
0.0
 20
0.0
 30
0.0
  9
$PUCSXDIR
 10
1.0
 20
0.0
 30
0.0
  9
$PUCSYDIR
 10
0.0
 20
1.0
 30
0.0
  9
$PUCSORTHOREF
  2

  9
$PUCSORTHOVIEW
 70
     0
  9
$PUCSORGTOP
 10
0.0
 20
0.0
 30
0.0
  9
$PUCSORGBOTTOM
 10
0.0
 20
0.0
 30
0.0
  9
$PUCSORGLEFT
 10
0.0
 20
0.0
 30
0.0
  9
$PUCSORGRIGHT
 10
0.0
 20
0.0
 30
0.0
  9
$PUCSORGFRONT
 10
0.0
 20
0.0
 30
0.0
  9
$PUCSORGBACK
 10
0.0
 20
0.0
 30
0.0
  9
$USERI1
 70
     0
  9
$USERI2
 70
     0
  9
$USERI3
 70
     0
  9
$USERI4
 70
     0
  9
$USERI5
 70
     0
  9
$USERR1
 40
0.0
  9
$USERR2
 40
0.0
  9
$USERR3
 40
0.0
  9
$USERR4
 40
0.0
  9
$USERR5
 40
0.0
  9
$WORLDVIEW
 70
     1
  9
$SHADEDGE
 70
     3
  9
$SHADEDIF
 70
    70
  9
$TILEMODE
 70
     1
  9
$MAXACTVP
 70
    64
  9
$PINSBASE
 10
0.0
 20
0.0
 30
0.0
  9
$PLIMCHECK
 70
     0
  9
$PEXTMIN
 10
1.000000000000000E+20
 20
1.000000000000000E+20
 30
1.000000000000000E+20
  9
$PEXTMAX
 10
-1.000000000000000E+20
 20
-1.000000000000000E+20
 30
-1.000000000000000E+20
  9
$PLIMMIN
 10
0.0
 20
0.0
  9
$PLIMMAX
 10
12.0
 20
9.0
  9
$UNITMODE
 70
     0
  9
$VISRETAIN
 70
     1
  9
$PLINEGEN
 70
     0
  9
$PSLTSCALE
 70
     1
  9
$TREEDEPTH
 70
  3020
  9
$CMLSTYLE
  2
Standard
  9
$CMLJUST
 70
     0
  9
$CMLSCALE
 40
1.0
  9
$PROXYGRAPHICS
 70
     1
  9
$MEASUREMENT
 70
     0
  9
$CELWEIGHT
370
    -1
  9
$ENDCAPS
280
     0
  9
$JOINSTYLE
280
     0
  9
$LWDISPLAY
290
     1
  9
$INSUNITS
 70
     1
  9
$HYPERLINKBASE
  1

  9
$STYLESHEET
  1

  9
$XEDIT
290
     1
  9
$CEPSNTYPE
380
     0
  9
$PSTYLEMODE
290
     1
  9
$FINGERPRINTGUID
  2
{4F4CF940-8F4C-BF49-BAC7-FC08746AA181}
  9
$VERSIONGUID
  2
{FAEB1C32-E019-11D5-929B-00C0DF256EC4}
  9
$EXTNAMES
290
     1
  9
$PSVPSCALE
 40
0.0
  9
$OLESTARTUP
290
     0
  9
$SORTENTS
280
   127
  9
$INDEXCTL
280
     0
  9
$HIDETEXT
280
     1
  9
$XCLIPFRAME
280
     2
  9
$HALOGAP
280
     0
  9
$OBSCOLOR
 70
   257
  9
$OBSLTYPE
280
     0
  9
$INTERSECTIONDISPLAY
280
     0
  9
$INTERSECTIONCOLOR
 70
   257
  9
$DIMASSOC
280
     2
  9
$PROJECTNAME
  1

  9
$CAMERADISPLAY
290
     0
  9
$LENSLENGTH
 40
50.0
  9
$CAMERAHEIGHT
 40
0.0
  9
$STEPSPERSEC
 40
2.0
  9
$STEPSIZE
 40
6.0
  9
$3DDWFPREC
 40
2.0
  9
$PSOLWIDTH
 40
0.25
  9
$PSOLHEIGHT
 40
4.0
  9
$LOFTANG1
 40
1.570796326794897
  9
$LOFTANG2
 40
1.570796326794897
  9
$LOFTMAG1
 40
0.0
  9
$LOFTMAG2
 40
0.0
  9
$LOFTPARAM
 70
     7
  9
$LOFTNORMALS
280
     1
  9
$LATITUDE
 40
37.795
  9
$LONGITUDE
 40
-122.394
  9
$NORTHDIRECTION
 40
0.0
  9
$TIMEZONE
 70
 -8000
  9
$LIGHTGLYPHDISPLAY
280
     1
  9
$TILEMODELIGHTSYNCH
280
     1
  9
$CMATERIAL
347
3C
  9
$SOLIDHIST
280
     1
  9
$SHOWHIST
280
     1
  9
$DWFFRAME
280
     2
  9
$DGNFRAME
280
     2
  9
$REALWORLDSCALE
290
     1
  9
$INTERFERECOLOR
 62
   256
  9
$CSHADOW
280
     0
  9
$SHADOWPLANELOCATION
 40
0.0
  0
ENDSEC
  0
SECTION
  2
CLASSES
  0
CLASS
  1
ACDBDICTIONARYWDFLT
  2
AcDbDictionaryWithDefault
  3
ObjectDBX Classes
 90
        0
 91
        4
280
     0
281
     0
  0
CLASS
  1
VISUALSTYLE
  2
AcDbVisualStyle
  3
ObjectDBX Classes
 90
     4095
 91
        4
280
     0
281
     0
  0
CLASS
  1
MATERIAL
  2
AcDbMaterial
  3
ObjectDBX Classes
 90
     1153
 91
        4
280
     0
281
     0
  0
CLASS
  1
SUN
  2
AcDbSun
  3
SCENEOE
 90
     1024
 91
        4
280
     0
281
     0
  0
ENDSEC
  0
SECTION
  2
TABLES
  0
TABLE
  2
VPORT
  5
8
330
0
100
AcDbSymbolTable
 70
     1
  0
VPORT
  5
29
330
8
100
AcDbSymbolTableRecord
100
AcDbViewportTableRecord
  2
*Active
 70
     0
 10
0.0
 20
0.0
 11
1.0
 21
1.0
 12
0.0
 22
0.0
 13
0.0
 23
0.0
 14
0.5
 24
0.5
 15
0.5
 25
0.5
 16
0.0
 26
0.0
 36
1.0
 17
11.60730406693669
 27
61.9751153625901
 37
0.0
 40
300.0001001256124
 41
1.000000004241324
 42
50.0
 43
0.0
 44
0.0
 50
0.0
 51
0.0
 71
     0
 72
   100
 73
     1
 74
     3
 75
     0
 76
     0
 77
     0
 78
     0
281
     0
 65
     1
110
0.0
120
0.0
130
0.0
111
1.0
121
0.0
131
0.0
112
0.0
122
1.0
132
0.0
 79
     0
146
0.0
 60
     3
 61
     5
292
     1
282
     1
141
0.0
142
0.0
 63
   250
361
3F
  0
ENDTAB
  0
TABLE
  2
LTYPE
  5
5
330
0
100
AcDbSymbolTable
 70
     1
  0
LTYPE
  5
14
330
5
100
AcDbSymbolTableRecord
100
AcDbLinetypeTableRecord
  2
ByBlock
 70
     0
  3

 72
    65
 73
     0
 40
0.0
  0
LTYPE
  5
15
330
5
100
AcDbSymbolTableRecord
100
AcDbLinetypeTableRecord
  2
ByLayer
 70
     0
  3

 72
    65
 73
     0
 40
0.0
  0
LTYPE
  5
16
330
5
100
AcDbSymbolTableRecord
100
AcDbLinetypeTableRecord
  2
Continuous
 70
     0
  3
Solid line
 72
    65
 73
     0
 40
0.0
  0
ENDTAB
  0
TABLE
  2
LAYER
  5
2
330
0
100
AcDbSymbolTable
 70
     2
  0
LAYER
  5
10
330
2
100
AcDbSymbolTableRecord
100
AcDbLayerTableRecord
  2
0
 70
     0
 62
     7
  6
Continuous
370
    -3
390
F
347
3E
  0
LAYER
  5
40
330
2
100
AcDbSymbolTableRecord
100
AcDbLayerTableRecord
  2
Hase
 70
     0
 62
     7
  6
Continuous
370
    -3
390
F
347
3E
  0
ENDTAB
  0
TABLE
  2
STYLE
  5
3
330
0
100
AcDbSymbolTable
 70
     1
  0
STYLE
  5
11
330
3
100
AcDbSymbolTableRecord
100
AcDbTextStyleTableRecord
  2
Standard
 70
     0
 40
0.0
 41
1.0
 50
0.0
 71
     0
 42
0.2
  3
txt
  4

  0
ENDTAB
  0
TABLE
  2
VIEW
  5
6
330
0
100
AcDbSymbolTable
 70
     0
  0
ENDTAB
  0
TABLE
  2
UCS
  5
7
330
0
100
AcDbSymbolTable
 70
     0
  0
ENDTAB
  0
TABLE
  2
APPID
  5
9
330
0
100
AcDbSymbolTable
 70
     1
  0
APPID
  5
12
330
9
100
AcDbSymbolTableRecord
100
AcDbRegAppTableRecord
  2
ACAD
 70
     0
  0
ENDTAB
  0
TABLE
  2
DIMSTYLE
  5
A
330
0
100
AcDbSymbolTable
 70
     1
100
AcDbDimStyleTable
  0
DIMSTYLE
105
27
330
A
100
AcDbSymbolTableRecord
100
AcDbDimStyleTableRecord
  2
Standard
 70
     0
178
     0
340
11
  0
ENDTAB
  0
TABLE
  2
BLOCK_RECORD
  5
1
330
0
100
AcDbSymbolTable
 70
     1
  0
BLOCK_RECORD
  5
1F
330
1
100
AcDbSymbolTableRecord
100
AcDbBlockTableRecord
  2
*Model_Space
340
22
 70
     0
280
     1
281
     0
  0
BLOCK_RECORD
  5
1B
330
1
100
AcDbSymbolTableRecord
100
AcDbBlockTableRecord
  2
*Paper_Space
340
1E
 70
     0
280
     1
281
     0
  0
BLOCK_RECORD
  5
23
330
1
100
AcDbSymbolTableRecord
100
AcDbBlockTableRecord
  2
*Paper_Space0
340
26
 70
     0
280
     1
281
     0
  0
ENDTAB
  0
ENDSEC
  0
SECTION
  2
BLOCKS
  0
BLOCK
  5
20
330
1F
100
AcDbEntity
  8
0
100
AcDbBlockBegin
  2
*Model_Space
 70
     0
 10
0.0
 20
0.0
 30
0.0
  3
*Model_Space
  1

  0
ENDBLK
  5
21
330
1F
100
AcDbEntity
  8
0
100
AcDbBlockEnd
  0
BLOCK
  5
1C
330
1B
100
AcDbEntity
 67
     1
  8
0
100
AcDbBlockBegin
  2
*Paper_Space
 70
     0
 10
0.0
 20
0.0
 30
0.0
  3
*Paper_Space
  1

  0
ENDBLK
  5
1D
330
1B
100
AcDbEntity
 67
     1
  8
0
100
AcDbBlockEnd
  0
BLOCK
  5
24
330
23
100
AcDbEntity
  8
0
100
AcDbBlockBegin
  2
*Paper_Space0
 70
     0
 10
0.0
 20
0.0
 30
0.0
  3
*Paper_Space0
  1

  0
ENDBLK
  5
25
330
23
100
AcDbEntity
  8
0
100
AcDbBlockEnd
  0
ENDSEC
  0
SECTION
  2
ENTITIES
  0
SPLINE
  5
41
330
1F
100
AcDbEntity
  8
Hase
 62
   179
420
  1709851
370
    35
100
AcDbSpline
210
0.0
220
0.0
230
1.0
 70
    11
 71
     3
 72
    35
 73
    31
 74
     0
 42
0.0000000001
 43
0.0000000001
 12
1.0
 22
0.0
 32
0.0
 13
1.0
 23
0.0
 33
0.0
 40
0.0
 40
0.0
 40
0.0
 40
0.0
 40
1.0
 40
1.0
 40
1.0
 40
2.0
 40
2.0
 40
2.0
 40
3.0
 40
3.0
 40
3.0
 40
4.0
 40
4.0
 40
4.0
 40
5.0
 40
5.0
 40
5.0
 40
6.0
 40
6.0
 40
6.0
 40
7.0
 40
7.0
 40
7.0
 40
8.0
 40
8.0
 40
8.0
 40
9.0
 40
9.0
 40
9.0
 40
10.0
 40
10.0
 40
10.0
 40
10.0
 10
46.70732723887296
 20
75.45207390679113
 30
0.0
 10
45.58902168336851
 20
70.36505553641524
 30
0.0
 10
43.87095862801592
 20
65.3133113878021
 30
0.0
 10
37.93730696281494
 20
64.91816664923152
 30
0.0
 10
37.81725668494916
 20
62.28647813196148
 30
0.0
 10
36.67778446275111
 20
56.48681161330765
 30
0.0
 10
36.67778446267956
 20
54.88862248741418
 30
0.0
 10
41.69781223909438
 20
52.48274998550495
 30
0.0
 10
47.37411251565003
 20
56.86784688088441
 30
0.0
 10
50.55256973697168
 20
54.52173360726264
 30
0.0
 10
51.3850547367232
 20
53.61170807488623
 30
0.0
 10
51.46273640333571
 20
52.84258331830988
 30
0.0
 10
49.97052168145468
 20
52.13342811266382
 30
0.0
 10
34.95972140735007
 20
50.35902776411606
 30
0.0
 10
31.20267335275772
 20
50.89165036740931
 30
0.0
 10
23.8895829658431
 20
54.14087472928736
 30
0.0
 10
21.25787485547137
 20
55.95764496083354
 30
0.0
 10
22.24213931918196
 20
57.47109686662233
 30
0.0
 10
23.38160413280546
 20
57.90137991114944
 30
0.0
 10
26.93402696520081
 20
56.79016665175733
 30
0.0
 10
27.39274390946605
 20
55.35443025372532
 30
0.0
 10
32.90316807473781
 20
54.96633943004564
 30
0.0
 10
32.89611251937028
 20
59.11490015754069
 30
0.0
 10
34.2083400191159
 20
60.75545789340531
 30
0.0
 10
34.16597140820208
 20
64.91816664940094
 30
0.0
 10
31.02988279797616
 20
67.16539467446175
 30
0.0
 10
26.33077696605941
 20
72.55940203705963
 30
0.0
 10
28.64863279902259
 20
77.21596275149025
 30
0.0
 10
34.77641807528289
 20
77.5370277573299
 30
0.0
 10
42.40696612896927
 20
78.39780553454968
 30
0.0
 10
46.70732723887296
 20
75.45207390679113
 30
0.0
  0
SPLINE
  5
42
330
1F
100
AcDbEntity
  8
Hase
 62
   179
420
  1709851
370
    35
100
AcDbSpline
210
0.0
220
0.0
230
1.0
 70
    11
 71
     3
 72
    17
 73
    13
 74
     0
 42
0.0000000001
 43
0.0000000001
 12
1.0
 22
0.0
 32
0.0
 13
1.0
 23
0.0
 33
0.0
 40
0.0
 40
0.0
 40
0.0
 40
0.0
 40
1.0
 40
1.0
 40
1.0
 40
2.0
 40
2.0
 40
2.0
 40
3.0
 40
3.0
 40
3.0
 40
4.0
 40
4.0
 40
4.0
 40
4.0
 10
132.7392791566637
 20
-39.16521249567096
 30
0.0
 10
134.1820697121979
 20
-31.6052905531811
 30
0.0
 10
131.0740974911173
 20
-23.48452249951572
 30
0.0
 10
129.225612491889
 20
-16.58743472337976
 30
0.0
 10
132.2876177690266
 20
-13.8041591686572
 30
0.0
 10
138.7681808229774
 20
-13.45138139125895
 30
0.0
 10
142.5181733219334
 20
-15.83605333527554
 30
0.0
 10
144.1480419325119
 20
-18.61971694576386
 30
0.0
 10
147.2913624870597
 20
-23.55479583356015
 30
0.0
 10
146.529291931445
 20
-29.12896694324338
 30
0.0
 10
145.5379863758114
 20
-36.37505777472033
 30
0.0
 10
141.3857566543155
 20
-43.31416138391084
 30
0.0
 10
132.7392791566637
 20
-39.16521249567096
 30
0.0
  0
SPLINE
  5
43
330
1F
100
AcDbEntity
  8
Hase
 62
   179
420
  1709851
370
    35
100
AcDbSpline
210
0.0
220
0.0
230
1.0
 70
    11
 71
     3
 72
   146
 73
   142
 74
     0
 42
0.0000000001
 43
0.0000000001
 12
1.0
 22
0.0
 32
0.0
 13
1.0
 23
0.0
 33
0.0
 40
0.0
 40
0.0
 40
0.0
 40
0.0
 40
1.0
 40
1.0
 40
1.0
 40
2.0
 40
2.0
 40
2.0
 40
3.0
 40
3.0
 40
3.0
 40
4.0
 40
4.0
 40
4.0
 40
5.0
 40
5.0
 40
5.0
 40
6.0
 40
6.0
 40
6.0
 40
7.0
 40
7.0
 40
7.0
 40
8.0
 40
8.0
 40
8.0
 40
9.0
 40
9.0
 40
9.0
 40
10.0
 40
10.0
 40
10.0
 40
11.0
 40
11.0
 40
11.0
 40
12.0
 40
12.0
 40
12.0
 40
13.0
 40
13.0
 40
13.0
 40
14.0
 40
14.0
 40
14.0
 40
15.0
 40
15.0
 40
15.0
 40
16.0
 40
16.0
 40
16.0
 40
17.0
 40
17.0
 40
17.0
 40
18.0
 40
18.0
 40
18.0
 40
19.0
 40
19.0
 40
19.0
 40
20.0
 40
20.0
 40
20.0
 40
21.0
 40
21.0
 40
21.0
 40
22.0
 40
22.0
 40
22.0
 40
23.0
 40
23.0
 40
23.0
 40
24.0
 40
24.0
 40
24.0
 40
25.0
 40
25.0
 40
25.0
 40
26.0
 40
26.0
 40
26.0
 40
27.0
 40
27.0
 40
27.0
 40
28.0
 40
28.0
 40
28.0
 40
29.0
 40
29.0
 40
29.0
 40
30.0
 40
30.0
 40
30.0
 40
31.0
 40
31.0
 40
31.0
 40
32.0
 40
32.0
 40
32.0
 40
33.0
 40
33.0
 40
33.0
 40
34.0
 40
34.0
 40
34.0
 40
35.0
 40
35.0
 40
35.0
 40
36.0
 40
36.0
 40
36.0
 40
37.0
 40
37.0
 40
37.0
 40
38.0
 40
38.0
 40
38.0
 40
39.0
 40
39.0
 40
39.0
 40
40.0
 40
40.0
 40
40.0
 40
41.0
 40
41.0
 40
41.0
 40
42.0
 40
42.0
 40
42.0
 40
43.0
 40
43.0
 40
43.0
 40
44.0
 40
44.0
 40
44.0
 40
45.0
 40
45.0
 40
45.0
 40
46.0
 40
46.0
 40
46.0
 40
47.0
 40
47.0
 40
47.0
 40
47.0
 10
64.26507722914667
 20
-43.42334610264295
 30
0.0
 10
57.77036778688088
 20
-31.05132360544483
 30
0.0
 10
58.47955695398754
 20
-17.30713666446793
 30
0.0
 10
71.28891806226703
 20
-9.063002222659131
 30
0.0
 10
68.19505695222826
 20
-2.395375224187559
 30
0.0
 10
60.03174389814288
 20
-15.10950749842017
 30
0.0
 10
58.83233473173937
 20
-15.92082583149701
 30
0.0
 10
52.36588278871417
 20
-20.31985888566199
 30
0.0
 10
55.73138278720445
 20
-35.20715165986979
 30
0.0
 10
58.4936680640347
 20
-40.91876499189889
 30
0.0
 10
50.01289028828825
 20
-42.90486860213291
 30
0.0
 10
41.28164029048326
 20
-42.63305332403083
 30
0.0
 10
35.05497140283324
 20
-49.7206410997569
 30
0.0
 10
30.2890141815584
 20
-55.15320720929628
 30
0.0
 10
28.29585501517141
 20
-60.02527998576645
 30
0.0
 10
31.40386251409206
 20
-66.75250526200203
 30
0.0
 10
24.27061118246772
 20
-68.4106313723788
 30
0.0
 10
17.28206223957541
 20
-72.76041664875507
 30
0.0
 10
10.15242335269191
 20
-67.79327026078803
 30
0.0
 10
2.588903077041369
 20
-62.52298192843242
 30
0.0
 10
6.93505474295622
 20
-55.06846998604664
 30
0.0
 10
13.09815307490494
 20
-51.59374998719205
 30
0.0
 10
21.43788323969823
 20
-46.88049776652304
 30
0.0
 10
20.59210910151333
 20
-35.91097860256037
 30
0.0
 10
17.35113613010758
 20
-35.76697471356187
 30
0.0
 10
14.83053890852209
 20
-35.62297082459546
 30
0.0
 10
17.53253446298891
 20
-44.82757804463786
 30
0.0
 10
13.31331224171335
 20
-47.24054276606784
 30
0.0
 10
8.2791733539529
 20
-50.12958109845279
 30
0.0
 10
-17.50186091555303
 20
-57.26299470662287
 30
0.0
 10
-15.57915247314791
 20
-44.16784832109436
 30
0.0
 10
-14.60901358420253
 20
-37.50366443391493
 30
0.0
 10
-9.356117196548064
 20
-35.75042943458912
 30
0.0
 10
-3.316667475777242
 20
-34.4450811018538
 30
0.0
 10
-0.9283619207955073
 20
-33.930060824312
 30
0.0
 10
3.276890300327586
 20
-34.99908332423289
 30
0.0
 10
3.227466133830625
 20
-31.48887388066367
 30
0.0
 10
3.178006689544595
 20
-28.23291138147593
 30
0.0
 10
3.276890300765225
 20
-25.24841138222621
 30
0.0
 10
3.735430856352053
 20
-21.99936332750351
 30
0.0
 10
5.682764189817947
 20
-8.202083331040251
 30
0.0
 10
4.913638079646772
 20
8.452555553719323
 30
0.0
 10
3.068645580729089
 20
22.28493693923348
 30
0.0
 10
3.721637247259659
 20
22.88610555016443
 30
0.0
 10
3.8446508584005
 20
24.23830277204302
 30
0.0
 10
3.068645580886947
 20
25.79514638280013
 30
0.0
 10
-0.2016396959345571
 20
28.89264110439505
 30
0.0
 10
-3.496513583860708
 20
31.98632582599156
 30
0.0
 10
-7.140743305052243
 20
34.65353749215466
 30
0.0
 10
-14.46430321090272
 20
40.0085973137757
 30
0.0
 10
-18.08027534040441
 20
50.46133332202738
 30
0.0
 10
-20.65911610756486
 20
58.94920044195026
 30
0.0
 10
-26.5788329001114
 20
78.40486109320078
 30
0.0
 10
-28.67775479022758
 20
95.78967700243139
 30
0.0
 10
-14.45019209691649
 20
112.0705121419894
 30
0.0
 10
-9.45842274518522
 20
117.7819489404987
 30
0.0
 10
-2.692250802143666
 20
124.2023984986181
 30
0.0
 10
4.324534474022239
 20
127.3739764729449
 30
0.0
 10
5.495862529308496
 20
127.8995095150404
 30
0.0
 10
11.39077919448444
 20
127.5186506356033
 30
0.0
 10
10.52986030592101
 20
129.9774058506915
 30
0.0
 10
9.736110306219553
 20
132.2105277447856
 30
0.0
 10
7.877112528996815
 20
134.2178332999229
 30
0.0
 10
6.441201140548929
 20
136.0487112515387
 30
0.0
 10
0.8532716978217666
 20
143.1748927366522
 30
0.0
 10
-8.826950521230113
 20
159.8965277386975
 30
0.0
 10
-5.052334132772439
 20
171.3052861859181
 30
0.0
 10
-1.940693022188151
 20
176.8968490986811
 30
0.0
 10
7.668867808821431
 20
178.6466268313874
 30
0.0
 10
11.3342641967133
 20
176.8510585436979
 30
0.0
 10
18.25925669482962
 20
173.4572658521921
 30
0.0
 10
23.0500141934539
 20
169.4921495642465
 30
0.0
 10
26.80360502553267
 20
162.4541666253473
 30
0.0
 10
30.71241807978316
 20
155.1481388492205
 30
0.0
 10
32.76551419001498
 20
146.9918776378402
 30
0.0
 10
35.01277918909777
 20
139.0755832974898
 30
0.0
 10
36.38148641076178
 20
134.2636204624027
 30
0.0
 10
38.26182724364016
 20
134.5988332984634
 30
0.0
 10
42.88325140917092
 20
135.0362037757339
 30
0.0
 10
47.09541807480237
 20
135.4313501543528
 30
0.0
 10
51.09930474036395
 20
133.1136707688572
 30
0.0
 10
55.23752918380927
 20
133.8967315820273
 30
0.0
 10
59.64365307196345
 20
142.0741944067456
 30
0.0
 10
64.73067334885413
 20
150.6361110710435
 30
0.0
 10
70.9430547365016
 20
157.5822662548318
 30
0.0
 10
75.64921612445004
 20
162.8457105647832
 30
0.0
 10
80.20001417920811
 20
170.4233417601462
 30
0.0
 10
86.75102695548907
 20
173.5596110643239
 30
0.0
 10
91.64409000992663
 20
175.9055435642143
 30
0.0
 10
98.80904195263909
 20
177.2250029746747
 30
0.0
 10
103.9701455623617
 20
175.0306546970922
 30
0.0
 10
111.0856380604471
 20
172.0037861628837
 30
0.0
 10
107.4204180609801
 20
163.4771827694687
 30
0.0
 10
105.8999105611245
 20
158.2208332895211
 30
0.0
 10
103.7479308391087
 20
150.8371200365529
 30
0.0
 10
99.27827167322226
 20
143.3300832935412
 30
0.0
 10
95.11538806286347
 20
136.9094537255982
 30
0.0
 10
92.30385500781263
 20
132.4963096716466
 30
0.0
 10
81.32534001014423
 20
123.292372962507
 30
0.0
 10
91.41122139647986
 20
122.5902777435239
 30
0.0
 10
107.0676402814065
 20
121.5002618959607
 30
0.0
 10
120.586014166245
 20
106.5671436652182
 30
0.0
 10
124.4595141646335
 20
92.25484375240369
 30
0.0
 10
127.8603272187769
 20
79.73483330815678
 30
0.0
 10
128.068395551163
 20
59.78877775757812
 30
0.0
 10
118.6633047197281
 20
49.6992967827908
 30
0.0
 10
112.7649661098068
 20
43.36340805580891
 30
0.0
 10
106.9263880555188
 20
39.07359510995742
 30
0.0
 10
99.87788805704491
 20
33.82771998755635
 30
0.0
 10
96.69943083551084
 20
31.46061637718017
 30
0.0
 10
93.10705944743977
 20
29.66226110001296
 30
0.0
 10
89.25941805945776
 20
28.44785887826698
 30
0.0
 10
88.77262000401753
 20
28.29422415610513
 30
0.0
 10
90.49241167017787
 20
26.59750415645213
 30
0.0
 10
91.85064139206234
 20
26.62371554527358
 30
0.0
 10
96.6911758353005
 20
26.71706054503222
 30
0.0
 10
101.486554722708
 20
20.44008554638661
 30
0.0
 10
104.4710547218204
 20
17.2754219359326
 30
0.0
 10
111.2303474975856
 20
10.09653527075729
 30
0.0
 10
118.0459436065838
 20
0.984264106062521
 30
0.0
 10
122.0570622162892
 20
-8.000894169648804
 30
0.0
 10
128.6504436028654
 20
-22.78584611069317
 30
0.0
 10
134.4819661001839
 20
-50.05207582636071
 30
0.0
 10
115.4071658267618
 20
-59.24909832320458
 30
0.0
 10
105.4411936068154
 20
-64.04327776600377
 30
0.0
 10
92.95652916541052
 20
-65.87779276498405
 30
0.0
 10
82.06966583475862
 20
-66.75250526427685
 30
0.0
 10
71.11598639301384
 20
-67.62411331912227
 30
0.0
 10
60.08116806233582
 20
-69.93131526249458
 30
0.0
 10
49.00380473172835
 20
-70.90145415064362
 30
0.0
 10
35.71470112388759
 20
-72.05831831642433
 30
0.0
 10
30.9380900144179
 20
-62.09234609647928
 30
0.0
 10
39.28830473500653
 20
-51.98166443271494
 30
0.0
 10
41.63441806788055
 20
-49.1491058224178
 30
0.0
 10
46.49216806679397
 20
-46.3055405455686
 30
0.0
 10
49.97052167706321
 20
-45.68126499032581
 30
0.0
 10
53.60060500951885
 20
-45.00742415732359
 30
0.0
 10
62.46947361832438
 20
-46.98661332389342
 30
0.0
 10
64.26507722914667
 20
-43.42334610264295
 30
0.0
 10
64.26507722914667
 20
-43.42334610264295
 30
0.0
 10
64.26507722914667
 20
-43.42334610264295
 30
0.0
 10
64.26507722914667
 20
-43.42334610264295
 30
0.0
  0
SPLINE
  5
44
330
1F
100
AcDbEntity
  8
Hase
 62
   179
420
  1709851
370
    35
100
AcDbSpline
210
0.0
220
0.0
230
1.0
 70
    11
 71
     3
 72
    17
 73
    13
 74
     0
 42
0.0000000001
 43
0.0000000001
 12
1.0
 22
0.0
 32
0.0
 13
1.0
 23
0.0
 33
0.0
 40
0.0
 40
0.0
 40
0.0
 40
0.0
 40
1.0
 40
1.0
 40
1.0
 40
2.0
 40
2.0
 40
2.0
 40
3.0
 40
3.0
 40
3.0
 40
4.0
 40
4.0
 40
4.0
 40
4.0
 10
16.55188280327403
 20
104.5527826101686
 30
0.0
 10
16.55188280318837
 20
102.6442221963157
 30
0.0
 10
14.44932724808913
 20
101.0990882539296
 30
0.0
 10
11.84586252651781
 20
101.0990882540464
 30
0.0
 10
9.252910582721405
 20
101.0990882541629
 30
0.0
 10
7.143334749984994
 20
102.644222196738
 30
0.0
 10
7.143334750070661
 20
104.5527826105909
 30
0.0
 10
7.143334750156328
 20
106.4612045063474
 30
0.0
 10
9.252910583031666
 20
108.0099341889636
 30
0.0
 10
11.84586252682807
 20
108.0099341888471
 30
0.0
 10
14.4493272483994
 20
108.0099341887303
 30
0.0
 10
16.5518828033597
 20
106.4612045059252
 30
0.0
 10
16.55188280327403
 20
104.5527826101686
 30
0.0
  0
SPLINE
  5
45
330
1F
100
AcDbEntity
  8
Hase
 62
   179
420
  1709851
370
    35
100
AcDbSpline
210
0.0
220
0.0
230
1.0
 70
    11
 71
     3
 72
    17
 73
    13
 74
     0
 42
0.0000000001
 43
0.0000000001
 12
1.0
 22
0.0
 32
0.0
 13
1.0
 23
0.0
 33
0.0
 40
0.0
 40
0.0
 40
0.0
 40
0.0
 40
1.0
 40
1.0
 40
1.0
 40
2.0
 40
2.0
 40
2.0
 40
3.0
 40
3.0
 40
3.0
 40
4.0
 40
4.0
 40
4.0
 40
4.0
 10
74.38623639994624
 20
104.9901564853025
 30
0.0
 10
74.38623639986089
 20
103.0887901449215
 30
0.0
 10
72.27662528920804
 20
101.5400604623054
 30
0.0
 10
69.68025140096753
 20
101.5400604624218
 30
0.0
 10
67.07661029050797
 20
101.5400604625389
 30
0.0
 10
64.96699917999372
 20
103.0887901453444
 30
0.0
 10
64.96699918007843
 20
104.9901564857254
 30
0.0
 10
64.96699918016441
 20
106.8987221930785
 30
0.0
 10
67.07661029081791
 20
108.4545400083581
 30
0.0
 10
69.68025140127811
 20
108.454540008241
 30
0.0
 10
72.27662528951798
 20
108.4545400081245
 30
0.0
 10
74.38623640003159
 20
106.8987221926556
 30
0.0
 10
74.38623639994624
 20
104.9901564853025
 30
0.0
  0
SPLINE
  5
46
330
1F
100
AcDbEntity
  8
Hase
 62
   179
420
  1709851
370
    35
100
AcDbSpline
210
0.0
220
0.0
230
1.0
 70
    11
 71
     3
 72
    17
 73
    13
 74
     0
 42
0.0000000001
 43
0.0000000001
 12
1.0
 22
0.0
 32
0.0
 13
1.0
 23
0.0
 33
0.0
 40
0.0
 40
0.0
 40
0.0
 40
0.0
 40
1.0
 40
1.0
 40
1.0
 40
2.0
 40
2.0
 40
2.0
 40
3.0
 40
3.0
 40
3.0
 40
4.0
 40
4.0
 40
4.0
 40
4.0
 10
21.07804286004739
 20
156.876710719515
 30
0.0
 10
23.62499963694845
 20
151.5321666282205
 30
0.0
 10
34.77641807800016
 20
138.0596150878533
 30
0.0
 10
23.84721083062479
 20
135.6676759827006
 30
0.0
 10
16.09316586026525
 20
133.9744166329483
 30
0.0
 10
12.4384233615943
 20
143.2312313458059
 30
0.0
 10
9.17522891819442
 20
148.3254834382095
 30
0.0
 10
5.795582530386863
 20
153.5923496928812
 30
0.0
 10
-0.1592358010447284
 20
162.7893719585129
 30
0.0
 10
3.35097364269133
 20
166.5569326955703
 30
0.0
 10
10.76272891897314
 20
174.5085436034861
 30
0.0
 10
18.81668086082469
 20
161.6004755991034
 30
0.0
 10
21.07804286004739
 20
156.876710719515
 30
0.0
  0
SPLINE
  5
47
330
1F
100
AcDbEntity
  8
Hase
 62
   179
420
  1709851
370
    35
100
AcDbSpline
210
0.0
220
0.0
230
1.0
 70
    11
 71
     3
 72
    17
 73
    13
 74
     0
 42
0.0000000001
 43
0.0000000001
 12
1.0
 22
0.0
 32
0.0
 13
1.0
 23
0.0
 33
0.0
 40
0.0
 40
0.0
 40
0.0
 40
0.0
 40
1.0
 40
1.0
 40
1.0
 40
2.0
 40
2.0
 40
2.0
 40
3.0
 40
3.0
 40
3.0
 40
4.0
 40
4.0
 40
4.0
 40
4.0
 10
-52.75825945201454
 20
132.4468502349766
 30
0.0
 10
-53.15686305313995
 20
128.3545928393968
 30
0.0
 10
-50.16206201859622
 20
124.7174540431646
 30
0.0
 10
-46.06617101199731
 20
124.3188504420388
 30
0.0
 10
-41.97754722743588
 20
123.9202499714024
 30
0.0
 10
-38.3367748201856
 20
126.9083450978504
 30
0.0
 10
-37.93471399692617
 20
131.0004261045459
 30
0.0
 10
-37.53611039580012
 20
135.0963171111441
 30
0.0
 10
-40.53472143024729
 20
138.7333147962691
 30
0.0
 10
-44.62338049258561
 20
139.1355167306364
 30
0.0
 10
-48.71923622140699
 20
139.5341203317618
 30
0.0
 10
-52.35623578917365
 20
136.5425648526905
 30
0.0
 10
-52.75825945201454
 20
132.4468502349766
 30
0.0
  0
SPLINE
  5
48
330
1F
100
AcDbEntity
  8
Hase
 62
   179
420
  1709851
370
    35
100
AcDbSpline
210
0.0
220
0.0
230
1.0
 70
    11
 71
     3
 72
    17
 73
    13
 74
     0
 42
0.0000000001
 43
0.0000000001
 12
1.0
 22
0.0
 32
0.0
 13
1.0
 23
0.0
 33
0.0
 40
0.0
 40
0.0
 40
0.0
 40
0.0
 40
1.0
 40
1.0
 40
1.0
 40
2.0
 40
2.0
 40
2.0
 40
3.0
 40
3.0
 40
3.0
 40
4.0
 40
4.0
 40
4.0
 40
4.0
 10
-34.68566602463805
 20
122.5973333047389
 30
0.0
 10
-34.9609032399648
 20
119.7856208349703
 30
0.0
 10
-32.9003988482005
 20
117.281039787664
 30
0.0
 10
-30.09228780874247
 20
117.0057672945607
 30
0.0
 10
-27.27733288057078
 20
116.7306711903415
 30
0.0
 10
-24.77257544437974
 20
118.7874008599795
 30
0.0
 10
-24.49730295127612
 20
121.6025674548134
 30
0.0
 10
-24.22220801897386
 20
124.4177340496464
 30
0.0
 10
-26.28235846105208
 20
126.9259166366129
 30
0.0
 10
-29.09770144477006
 20
127.2010095344135
 30
0.0
 10
-31.90581248422809
 20
127.4726484164984
 30
0.0
 10
-34.41381547589157
 20
125.4124999706894
 30
0.0
 10
-34.68566602463805
 20
122.5973333047389
 30
0.0
  0
SPLINE
  5
49
330
1F
100
AcDbEntity
  8
Hase
 62
   179
420
  1709851
370
    35
100
AcDbSpline
210
0.0
220
0.0
230
1.0
 70
    11
 71
     3
 72
    29
 73
    25
 74
     0
 42
0.0000000001
 43
0.0000000001
 12
1.0
 22
0.0
 32
0.0
 13
1.0
 23
0.0
 33
0.0
 40
0.0
 40
0.0
 40
0.0
 40
0.0
 40
1.0
 40
1.0
 40
1.0
 40
2.0
 40
2.0
 40
2.0
 40
3.0
 40
3.0
 40
3.0
 40
4.0
 40
4.0
 40
4.0
 40
5.0
 40
5.0
 40
5.0
 40
6.0
 40
6.0
 40
6.0
 40
7.0
 40
7.0
 40
7.0
 40
8.0
 40
8.0
 40
8.0
 40
8.0
 10
-124.3545781800769
 20
152.9115944383143
 30
0.0
 10
-124.319441514752
 20
142.9914483025078
 30
0.0
 10
-116.2513786653899
 20
134.9798651732048
 30
0.0
 10
-106.3381116960742
 20
135.0151782274144
 30
0.0
 10
-106.3381116960742
 20
135.0151782274144
 30
0.0
 10
-72.4153189503999
 20
135.138509333856
 30
0.0
 10
-72.4153189503999
 20
135.138509333856
 30
0.0
 10
-62.49859689781078
 20
135.1738223880653
 30
0.0
 10
-54.48701356611873
 20
143.2418888560222
 30
0.0
 10
-54.52214829497241
 20
153.1620666510111
 30
0.0
 10
-54.52214829497241
 20
153.1620666510111
 30
0.0
 10
-54.64583217918375
 20
187.077980230194
 30
0.0
 10
-54.64583217918375
 20
187.077980230194
 30
0.0
 10
-54.67754690015153
 20
196.9947044216433
 30
0.0
 10
-62.74906911683473
 20
205.0062522731695
 30
0.0
 10
-72.66575588532045
 20
204.9709443969619
 30
0.0
 10
-72.66575588532045
 20
204.9709443969619
 30
0.0
 10
-106.585126686637
 20
204.8510653346523
 30
0.0
 10
-106.585126686637
 20
204.8510653346523
 30
0.0
 10
-116.501850878086
 20
204.815752280443
 30
0.0
 10
-124.5134024350985
 20
196.7442322089465
 30
0.0
 10
-124.4782620642876
 20
186.8311416285156
 30
0.0
 10
-124.4782620642876
 20
186.8311416285156
 30
0.0
 10
-124.3545781800769
 20
152.9115944383143
 30
0.0
 10
-124.3545781800769
 20
152.9115944383143
 30
0.0
  0
SPLINE
  5
4A
330
1F
100
AcDbEntity
  8
Hase
 62
   179
420
  1709851
370
    35
100
AcDbSpline
210
0.0
220
0.0
230
1.0
 70
    11
 71
     3
 72
    95
 73
    91
 74
     0
 42
0.0000000001
 43
0.0000000001
 12
1.0
 22
0.0
 32
0.0
 13
1.0
 23
0.0
 33
0.0
 40
0.0
 40
0.0
 40
0.0
 40
0.0
 40
1.0
 40
1.0
 40
1.0
 40
2.0
 40
2.0
 40
2.0
 40
3.0
 40
3.0
 40
3.0
 40
4.0
 40
4.0
 40
4.0
 40
5.0
 40
5.0
 40
5.0
 40
6.0
 40
6.0
 40
6.0
 40
7.0
 40
7.0
 40
7.0
 40
8.0
 40
8.0
 40
8.0
 40
9.0
 40
9.0
 40
9.0
 40
10.0
 40
10.0
 40
10.0
 40
11.0
 40
11.0
 40
11.0
 40
12.0
 40
12.0
 40
12.0
 40
13.0
 40
13.0
 40
13.0
 40
14.0
 40
14.0
 40
14.0
 40
15.0
 40
15.0
 40
15.0
 40
16.0
 40
16.0
 40
16.0
 40
17.0
 40
17.0
 40
17.0
 40
18.0
 40
18.0
 40
18.0
 40
19.0
 40
19.0
 40
19.0
 40
20.0
 40
20.0
 40
20.0
 40
21.0
 40
21.0
 40
21.0
 40
22.0
 40
22.0
 40
22.0
 40
23.0
 40
23.0
 40
23.0
 40
24.0
 40
24.0
 40
24.0
 40
25.0
 40
25.0
 40
25.0
 40
26.0
 40
26.0
 40
26.0
 40
27.0
 40
27.0
 40
27.0
 40
28.0
 40
28.0
 40
28.0
 40
29.0
 40
29.0
 40
29.0
 40
30.0
 40
30.0
 40
30.0
 40
30.0
 10
-117.5601841855003
 20
180.7386695614147
 30
0.0
 10
-113.8949290010911
 20
183.8537325373337
 30
0.0
 10
-108.7514291322838
 20
184.4957221814782
 30
0.0
 10
-103.5231246631856
 20
183.0034721816168
 30
0.0
 10
-103.5231246631856
 20
183.0034721816168
 30
0.0
 10
-109.6154524433193
 20
190.1718412648421
 30
0.0
 10
-109.6154524433193
 20
190.1718412648421
 30
0.0
 10
-110.3633765908651
 20
191.0537856868199
 30
0.0
 10
-110.2576138157265
 20
192.3767023197314
 30
0.0
 10
-109.3756693937483
 20
193.1246264672774
 30
0.0
 10
-108.4937249717708
 20
193.8725858926001
 30
0.0
 10
-107.1708083388597
 20
193.7666467285768
 30
0.0
 10
-106.4228841913133
 20
192.8847023065992
 30
0.0
 10
-106.4228841913133
 20
192.8847023065992
 30
0.0
 10
-100.0694302194965
 20
185.4059194415581
 30
0.0
 10
-100.0694302194965
 20
185.4059194415581
 30
0.0
 10
-100.8421515559972
 20
190.9867931881017
 30
0.0
 10
-99.40624020350916
 20
196.1620077782287
 30
0.0
 10
-95.63144752189062
 20
199.3688635295789
 30
0.0
 10
-94.74950309991245
 20
200.1202499547216
 30
0.0
 10
-93.43004368913535
 20
200.0108888435786
 30
0.0
 10
-92.67866231945493
 20
199.1289443993206
 30
0.0
 10
-91.93073817190918
 20
198.2469999550633
 30
0.0
 10
-92.03685372481655
 20
196.9275002583686
 30
0.0
 10
-92.91879814679473
 20
196.1761188886884
 30
0.0
 10
-96.45345799782916
 20
193.17408590988
 30
0.0
 10
-97.03186943113481
 20
187.6107804962821
 30
0.0
 10
-94.94346031800329
 20
181.9205103635813
 30
0.0
 10
-90.93615180905205
 20
183.5925711540771
 30
0.0
 10
-86.84713996897256
 20
182.5836972907429
 30
0.0
 10
-84.94235168439292
 20
179.059341547238
 30
0.0
 10
-84.94235168439292
 20
179.059341547238
 30
0.0
 10
-81.97545800232876
 20
173.5701194649243
 30
0.0
 10
-81.97545800232876
 20
173.5701194649243
 30
0.0
 10
-85.46082917156009
 20
170.2646976049645
 30
0.0
 10
-87.5916421728619
 20
167.8657029440416
 30
0.0
 10
-87.26020745911259
 20
167.4777885094786
 30
0.0
 10
-86.93914441176473
 20
167.1002104635415
 30
0.0
 10
-84.40976308733515
 20
168.6806548675518
 30
0.0
 10
-80.8006701237333
 20
171.3971142425316
 30
0.0
 10
-80.8006701237333
 20
171.3971142425316
 30
0.0
 10
-67.83262990009743
 20
147.3975367986743
 30
0.0
 10
-67.83262990009743
 20
147.3975367986743
 30
0.0
 10
-65.42657968390267
 20
142.9490833010311
 30
0.0
 10
-66.7953221490332
 20
141.8342313850036
 30
0.0
 10
-70.87018760049166
 20
144.9246704730098
 30
0.0
 10
-70.87018760049166
 20
144.9246704730098
 30
0.0
 10
-79.10395016792823
 20
151.1618167031455
 30
0.0
 10
-79.10395016792823
 20
151.1618167031455
 30
0.0
 10
-77.68906437062363
 20
152.6786944102604
 30
0.0
 10
-76.95179411161027
 20
153.6875996941663
 30
0.0
 10
-77.15644049526728
 20
153.9309810768553
 30
0.0
 10
-77.37519798967476
 20
154.1850869037155
 30
0.0
 10
-78.61715212468542
 20
153.5360110869973
 30
0.0
 10
-80.52539763161596
 20
152.2377221882758
 30
0.0
 10
-80.52539763161596
 20
152.2377221882758
 30
0.0
 10
-86.37826303765355
 20
156.6686423963146
 30
0.0
 10
-86.37826303765355
 20
156.6686423963146
 30
0.0
 10
-84.35324808922358
 20
158.7324276213497
 30
0.0
 10
-83.23497783991174
 20
160.1364831410347
 30
0.0
 10
-83.48199283359702
 20
160.4256944085835
 30
0.0
 10
-83.742766160264
 20
160.7326422925149
 30
0.0
 10
-85.45740722767461
 20
159.7518142620594
 30
0.0
 10
-88.02192521788663
 20
157.9174756978613
 30
0.0
 10
-88.02192521788663
 20
157.9174756978613
 30
0.0
 10
-97.74123496959591
 20
165.2798418993569
 30
0.0
 10
-97.74123496959591
 20
165.2798418993569
 30
0.0
 10
-94.84115476568022
 20
168.0669273836778
 30
0.0
 10
-93.03489731166927
 20
170.1129721843685
 30
0.0
 10
-93.04900842239536
 20
170.6774475947751
 30
0.0
 10
-93.04900842239536
 20
170.6774475947751
 30
0.0
 10
-93.17957147461355
 20
170.8255832953077
 30
0.0
 10
-93.17957147461355
 20
170.8255832953077
 30
0.0
 10
-93.75837395984193
 20
170.9349444064176
 30
0.0
 10
-96.24538667424196
 20
169.3508973509838
 30
0.0
 10
-99.68151269780698
 20
166.7474326953359
 30
0.0
 10
-99.68151269780698
 20
166.7474326953359
 30
0.0
 10
-99.88234908156505
 20
166.899197691473
 30
0.0
 10
-99.88234908156505
 20
166.899197691473
 30
0.0
 10
-103.2337378848393
 20
169.4390917934924
 30
0.0
 10
-103.4242731575623
 20
173.7571666283683
 30
0.0
 10
-100.7184676708746
 20
177.3872807572706
 30
0.0
 10
-105.9185178158604
 20
180.2306695738525
 30
0.0
 10
-111.3724302168911
 20
180.4987101228143
 30
0.0
 10
-114.8471467548587
 20
177.5459249205242
 30
0.0
 10
-115.7290911768369
 20
176.7981771618629
 30
0.0
 10
-117.0485858653909
 20
176.903944405971
 30
0.0
 10
-117.7999672350713
 20
177.785888850229
 30
0.0
 10
-118.5478913826171
 20
178.6678332944863
 30
0.0
 10
-118.4421286074778
 20
179.9907499608174
 30
0.0
 10
-117.5601841855003
 20
180.7386695614147
 30
0.0
  0
ENDSEC
  0
SECTION
  2
OBJECTS
  0
DICTIONARY
  5
C
330
0
100
AcDbDictionary
281
     1
  3
ACAD_GROUP
350
D
  3
ACAD_LAYOUT
350
1A
  3
ACAD_MATERIAL
350
3B
  3
ACAD_MLEADERSTYLE
350
4C
  3
ACAD_MLINESTYLE
350
17
  3
ACAD_PLOTSETTINGS
350
19
  3
ACAD_PLOTSTYLENAME
350
E
  3
ACAD_TABLESTYLE
350
4B
  3
ACAD_VISUALSTYLE
350
2A
  0
SUN
  5
3F
330
29
100
AcDbSun
 90
        1
290
     0
 63
     7
421
 16777215
 40
1.0
291
     1
 91
  2455826
 92
 54000000
292
     0
 70
     2
 71
   256
280
     1
  0
DICTIONARY
  5
D
102
{ACAD_REACTORS
330
C
102
}
330
C
100
AcDbDictionary
281
     1
  0
DICTIONARY
  5
1A
102
{ACAD_REACTORS
330
C
102
}
330
C
100
AcDbDictionary
281
     1
  3
Layout1
350
1E
  3
Layout2
350
26
  3
Model
350
22
  0
DICTIONARY
  5
3B
102
{ACAD_REACTORS
330
C
102
}
330
C
100
AcDbDictionary
281
     1
  3
ByBlock
350
3D
  3
ByLayer
350
3C
  3
Global
350
3E
  0
DICTIONARY
  5
4C
102
{ACAD_REACTORS
330
C
102
}
330
C
100
AcDbDictionary
281
     1
  0
DICTIONARY
  5
17
102
{ACAD_REACTORS
330
C
102
}
330
C
100
AcDbDictionary
281
     1
  3
Standard
350
18
  0
DICTIONARY
  5
19
102
{ACAD_REACTORS
330
C
102
}
330
C
100
AcDbDictionary
281
     1
  0
ACDBDICTIONARYWDFLT
  5
E
102
{ACAD_REACTORS
330
C
102
}
330
C
100
AcDbDictionary
281
     1
  3
Normal
350
F
100
AcDbDictionaryWithDefault
340
F
  0
DICTIONARY
  5
4B
102
{ACAD_REACTORS
330
C
102
}
330
C
100
AcDbDictionary
281
     1
  0
DICTIONARY
  5
2A
102
{ACAD_REACTORS
330
C
102
}
330
C
100
AcDbDictionary
281
     1
  3
2dWireframe
350
2F
  3
3D Hidden
350
31
  3
3dWireframe
350
30
  3
Basic
350
32
  3
Brighten
350
36
  3
ColorChange
350
3A
  3
Conceptual
350
34
  3
Dim
350
35
  3
Facepattern
350
39
  3
Flat
350
2B
  3
FlatWithEdges
350
2C
  3
Gouraud
350
2D
  3
GouraudWithEdges
350
2E
  3
Linepattern
350
38
  3
Realistic
350
33
  3
Thicken
350
37
  0
LAYOUT
  5
1E
102
{ACAD_REACTORS
330
1A
102
}
330
1A
100
AcDbPlotSettings
  1

  2
none_device
  4

  6

 40
0.0
 41
0.0
 42
0.0
 43
0.0
 44
0.0
 45
0.0
 46
0.0
 47
0.0
 48
0.0
 49
0.0
140
0.0
141
0.0
142
1.0
143
1.0
 70
   688
 72
     0
 73
     0
 74
     5
  7

 75
    16
 76
     0
 77
     2
 78
   300
147
1.0
148
0.0
149
0.0
100
AcDbLayout
  1
Layout1
 70
     1
 71
     1
 10
0.0
 20
0.0
 11
12.0
 21
9.0
 12
0.0
 22
0.0
 32
0.0
 14
1.000000000000000E+20
 24
1.000000000000000E+20
 34
1.000000000000000E+20
 15
-1.000000000000000E+20
 25
-1.000000000000000E+20
 35
-1.000000000000000E+20
146
0.0
 13
0.0
 23
0.0
 33
0.0
 16
1.0
 26
0.0
 36
0.0
 17
0.0
 27
1.0
 37
0.0
 76
     0
330
1B
  0
LAYOUT
  5
26
102
{ACAD_REACTORS
330
1A
102
}
330
1A
100
AcDbPlotSettings
  1

  2
none_device
  4

  6

 40
0.0
 41
0.0
 42
0.0
 43
0.0
 44
0.0
 45
0.0
 46
0.0
 47
0.0
 48
0.0
 49
0.0
140
0.0
141
0.0
142
1.0
143
1.0
 70
   688
 72
     0
 73
     0
 74
     5
  7

 75
    16
 76
     0
 77
     2
 78
   300
147
1.0
148
0.0
149
0.0
100
AcDbLayout
  1
Layout2
 70
     1
 71
     2
 10
0.0
 20
0.0
 11
0.0
 21
0.0
 12
0.0
 22
0.0
 32
0.0
 14
0.0
 24
0.0
 34
0.0
 15
0.0
 25
0.0
 35
0.0
146
0.0
 13
0.0
 23
0.0
 33
0.0
 16
1.0
 26
0.0
 36
0.0
 17
0.0
 27
1.0
 37
0.0
 76
     0
330
23
  0
LAYOUT
  5
22
102
{ACAD_REACTORS
330
1A
102
}
330
1A
100
AcDbPlotSettings
  1

  2
none_device
  4

  6

 40
0.0
 41
0.0
 42
0.0
 43
0.0
 44
0.0
 45
0.0
 46
0.0
 47
0.0
 48
0.0
 49
0.0
140
0.0
141
0.0
142
1.0
143
1.0
 70
  1712
 72
     0
 73
     0
 74
     0
  7

 75
     0
 76
     0
 77
     2
 78
   300
147
1.0
148
0.0
149
0.0
100
AcDbLayout
  1
Model
 70
     1
 71
     0
 10
0.0
 20
0.0
 11
12.0
 21
9.0
 12
0.0
 22
0.0
 32
0.0
 14
1.000000000000000E+20
 24
1.000000000000000E+20
 34
1.000000000000000E+20
 15
-1.000000000000000E+20
 25
-1.000000000000000E+20
 35
-1.000000000000000E+20
146
0.0
 13
0.0
 23
0.0
 33
0.0
 16
1.0
 26
0.0
 36
0.0
 17
0.0
 27
1.0
 37
0.0
 76
     0
330
1F
331
29
  0
MATERIAL
  5
3D
102
{ACAD_REACTORS
330
3B
102
}
330
3B
100
AcDbMaterial
  1
ByBlock
 72
     1
 94
      127
  0
MATERIAL
  5
3C
102
{ACAD_REACTORS
330
3B
102
}
330
3B
100
AcDbMaterial
  1
ByLayer
 72
     1
 94
      127
  0
MATERIAL
  5
3E
102
{ACAD_REACTORS
330
3B
102
}
330
3B
100
AcDbMaterial
  1
Global
 72
     1
 94
      127
  0
MLINESTYLE
  5
18
102
{ACAD_REACTORS
330
17
102
}
330
17
100
AcDbMlineStyle
  2
Standard
 70
     0
  3

 62
   256
 51
90.0
 52
90.0
 71
     2
 49
0.5
 62
   256
  6
BYLAYER
 49
-0.5
 62
   256
  6
BYLAYER
  0
ACDBPLACEHOLDER
  5
F
102
{ACAD_REACTORS
330
E
102
}
330
E
  0
VISUALSTYLE
  5
2F
102
{ACAD_REACTORS
330
2A
102
}
330
2A
100
AcDbVisualStyle
  2
2dWireframe
 70
     4
177
     2
291
     0
 71
     0
176
     1
 72
     2
176
     1
 73
     0
176
     1
 90
        0
176
     1
 40
-0.6
176
     1
 41
-30.0
176
     1
 62
     5
 63
     7
421
 16777215
176
     1
 74
     1
176
     1
 91
        4
176
     1
 64
     7
176
     1
 65
   257
176
     1
 75
     1
176
     1
175
     1
176
     1
 42
1.0
176
     1
 92
        0
176
     1
 66
   257
176
     1
 43
1.0
176
     1
 76
     1
176
     1
 77
     6
176
     1
 78
     2
176
     1
 67
     7
176
     1
 79
     5
176
     1
170
     0
176
     1
171
     0
176
     1
290
     0
176
     1
 93
        1
176
     1
 44
0.0
176
     1
173
     0
176
     1
  0
VISUALSTYLE
  5
31
102
{ACAD_REACTORS
330
2A
102
}
330
2A
100
AcDbVisualStyle
  2
3D Hidden
 70
     6
177
     2
291
     0
 71
     1
176
     1
 72
     2
176
     1
 73
     2
176
     1
 90
        0
176
     1
 40
-0.6
176
     1
 41
-30.0
176
     1
 62
     5
 63
     7
421
 16777215
176
     1
 74
     2
176
     1
 91
        2
176
     1
 64
     7
176
     1
 65
   257
176
     1
 75
     2
176
     1
175
     1
176
     1
 42
40.0
176
     1
 92
        0
176
     1
 66
   257
176
     1
 43
1.0
176
     1
 76
     1
176
     1
 77
     6
176
     1
 78
     2
176
     1
 67
     7
176
     1
 79
     3
176
     1
170
     0
176
     1
171
     0
176
     1
290
     0
176
     1
 93
        1
176
     1
 44
0.0
176
     1
173
     0
176
     1
  0
VISUALSTYLE
  5
30
102
{ACAD_REACTORS
330
2A
102
}
330
2A
100
AcDbVisualStyle
  2
3dWireframe
 70
     5
177
     2
291
     0
 71
     0
176
     1
 72
     2
176
     1
 73
     0
176
     1
 90
        0
176
     1
 40
-0.6
176
     1
 41
-30.0
176
     1
 62
     5
 63
     7
421
 16777215
176
     1
 74
     1
176
     1
 91
        4
176
     1
 64
     7
176
     1
 65
   257
176
     1
 75
     1
176
     1
175
     1
176
     1
 42
1.0
176
     1
 92
        0
176
     1
 66
   257
176
     1
 43
1.0
176
     1
 76
     1
176
     1
 77
     6
176
     1
 78
     2
176
     1
 67
     7
176
     1
 79
     5
176
     1
170
     0
176
     1
171
     0
176
     1
290
     0
176
     1
 93
        1
176
     1
 44
0.0
176
     1
173
     0
176
     1
  0
VISUALSTYLE
  5
32
102
{ACAD_REACTORS
330
2A
102
}
330
2A
100
AcDbVisualStyle
  2
Basic
 70
     7
177
     2
291
     1
 71
     1
176
     1
 72
     0
176
     1
 73
     1
176
     1
 90
        0
176
     1
 40
-0.6
176
     1
 41
-30.0
176
     1
 62
     5
 63
     7
421
 16777215
176
     1
 74
     0
176
     1
 91
        4
176
     1
 64
     7
176
     1
 65
   257
176
     1
 75
     1
176
     1
175
     1
176
     1
 42
1.0
176
     1
 92
        8
176
     1
 66
     7
176
     1
 43
1.0
176
     1
 76
     1
176
     1
 77
     6
176
     1
 78
     2
176
     1
 67
     7
176
     1
 79
     5
176
     1
170
     0
176
     1
171
     0
176
     1
290
     0
176
     1
 93
        1
176
     1
 44
0.0
176
     1
173
     0
176
     1
  0
VISUALSTYLE
  5
36
102
{ACAD_REACTORS
330
2A
102
}
330
2A
100
AcDbVisualStyle
  2
Brighten
 70
    12
177
     2
291
     1
 71
     2
176
     1
 72
     2
176
     1
 73
     0
176
     1
 90
        0
176
     1
 40
-0.6
176
     1
 41
-30.0
176
     1
 62
     5
 63
     7
421
 16777215
176
     1
 74
     1
176
     1
 91
        4
176
     1
 64
     7
176
     1
 65
   257
176
     1
 75
     1
176
     1
175
     1
176
     1
 42
1.0
176
     1
 92
        8
176
     1
 66
     7
176
     1
 43
1.0
176
     1
 76
     1
176
     1
 77
     6
176
     1
 78
     2
176
     1
 67
     7
176
     1
 79
     5
176
     1
170
     0
176
     1
171
     0
176
     1
290
     0
176
     1
 93
        1
176
     1
 44
50.0
176
     1
173
     0
176
     1
  0
VISUALSTYLE
  5
3A
102
{ACAD_REACTORS
330
2A
102
}
330
2A
100
AcDbVisualStyle
  2
ColorChange
 70
    16
177
     2
291
     1
 71
     2
176
     1
 72
     2
176
     1
 73
     3
176
     1
 90
        0
176
     1
 40
-0.6
176
     1
 41
-30.0
176
     1
 62
     5
 63
     8
421
  8421504
176
     1
 74
     1
176
     1
 91
        4
176
     1
 64
     7
176
     1
 65
   257
176
     1
 75
     1
176
     1
175
     1
176
     1
 42
1.0
176
     1
 92
        8
176
     1
 66
     8
424
  8421504
176
     1
 43
1.0
176
     1
 76
     1
176
     1
 77
     6
176
     1
 78
     2
176
     1
 67
     7
176
     1
 79
     5
176
     1
170
     0
176
     1
171
     0
176
     1
290
     0
176
     1
 93
        1
176
     1
 44
0.0
176
     1
173
     0
176
     1
  0
VISUALSTYLE
  5
34
102
{ACAD_REACTORS
330
2A
102
}
330
2A
100
AcDbVisualStyle
  2
Conceptual
 70
     9
177
     2
291
     0
 71
     3
176
     1
 72
     2
176
     1
 73
     0
176
     1
 90
        0
176
     1
 40
-0.6
176
     1
 41
-30.0
176
     1
 62
     5
 63
     7
421
 16777215
176
     1
 74
     2
176
     1
 91
        2
176
     1
 64
     7
176
     1
 65
   257
176
     1
 75
     1
176
     1
175
     1
176
     1
 42
40.0
176
     1
 92
        8
176
     1
 66
     7
176
     1
 43
1.0
176
     1
 76
     1
176
     1
 77
     6
176
     1
 78
     2
176
     1
 67
     7
176
     1
 79
     3
176
     1
170
     0
176
     1
171
     0
176
     1
290
     0
176
     1
 93
        1
176
     1
 44
0.0
176
     1
173
     0
176
     1
  0
VISUALSTYLE
  5
35
102
{ACAD_REACTORS
330
2A
102
}
330
2A
100
AcDbVisualStyle
  2
Dim
 70
    11
177
     2
291
     1
 71
     2
176
     1
 72
     2
176
     1
 73
     0
176
     1
 90
        0
176
     1
 40
-0.6
176
     1
 41
-30.0
176
     1
 62
     5
 63
     7
421
 16777215
176
     1
 74
     1
176
     1
 91
        4
176
     1
 64
     7
176
     1
 65
   257
176
     1
 75
     1
176
     1
175
     1
176
     1
 42
1.0
176
     1
 92
        8
176
     1
 66
     7
176
     1
 43
1.0
176
     1
 76
     1
176
     1
 77
     6
176
     1
 78
     2
176
     1
 67
     7
176
     1
 79
     5
176
     1
170
     0
176
     1
171
     0
176
     1
290
     0
176
     1
 93
        1
176
     1
 44
-50.0
176
     1
173
     0
176
     1
  0
VISUALSTYLE
  5
39
102
{ACAD_REACTORS
330
2A
102
}
330
2A
100
AcDbVisualStyle
  2
Facepattern
 70
    15
177
     2
291
     1
 71
     2
176
     1
 72
     2
176
     1
 73
     0
176
     1
 90
        0
176
     1
 40
-0.6
176
     1
 41
-30.0
176
     1
 62
     5
 63
     7
421
 16777215
176
     1
 74
     1
176
     1
 91
        4
176
     1
 64
     7
176
     1
 65
   257
176
     1
 75
     1
176
     1
175
     1
176
     1
 42
1.0
176
     1
 92
        8
176
     1
 66
     7
176
     1
 43
1.0
176
     1
 76
     1
176
     1
 77
     6
176
     1
 78
     2
176
     1
 67
     7
176
     1
 79
     5
176
     1
170
     0
176
     1
171
     0
176
     1
290
     0
176
     1
 93
        1
176
     1
 44
0.0
176
     1
173
     0
176
     1
  0
VISUALSTYLE
  5
2B
102
{ACAD_REACTORS
330
2A
102
}
330
2A
100
AcDbVisualStyle
  2
Flat
 70
     0
177
     2
291
     1
 71
     2
176
     1
 72
     1
176
     1
 73
     1
176
     1
 90
        2
176
     1
 40
-0.6
176
     1
 41
30.0
176
     1
 62
     5
 63
     7
421
 16777215
176
     1
 74
     0
176
     1
 91
        4
176
     1
 64
     7
176
     1
 65
   257
176
     1
 75
     1
176
     1
175
     1
176
     1
 42
1.0
176
     1
 92
        8
176
     1
 66
     7
176
     1
 43
1.0
176
     1
 76
     1
176
     1
 77
     6
176
     1
 78
     2
176
     1
 67
     7
176
     1
 79
     5
176
     1
170
     0
176
     1
171
     0
176
     1
290
     0
176
     1
 93
       13
176
     1
 44
0.0
176
     1
173
     0
176
     1
  0
VISUALSTYLE
  5
2C
102
{ACAD_REACTORS
330
2A
102
}
330
2A
100
AcDbVisualStyle
  2
FlatWithEdges
 70
     1
177
     2
291
     1
 71
     2
176
     1
 72
     1
176
     1
 73
     1
176
     1
 90
        2
176
     1
 40
-0.6
176
     1
 41
30.0
176
     1
 62
     5
 63
     7
421
 16777215
176
     1
 74
     1
176
     1
 91
        4
176
     1
 64
     7
176
     1
 65
   257
176
     1
 75
     1
176
     1
175
     1
176
     1
 42
1.0
176
     1
 92
        0
176
     1
 66
   257
176
     1
 43
1.0
176
     1
 76
     1
176
     1
 77
     6
176
     1
 78
     2
176
     1
 67
     7
176
     1
 79
     5
176
     1
170
     0
176
     1
171
     0
176
     1
290
     0
176
     1
 93
       13
176
     1
 44
0.0
176
     1
173
     0
176
     1
  0
VISUALSTYLE
  5
2D
102
{ACAD_REACTORS
330
2A
102
}
330
2A
100
AcDbVisualStyle
  2
Gouraud
 70
     2
177
     2
291
     1
 71
     2
176
     1
 72
     2
176
     1
 73
     1
176
     1
 90
        2
176
     1
 40
-0.6
176
     1
 41
30.0
176
     1
 62
     5
 63
     7
421
 16777215
176
     1
 74
     0
176
     1
 91
        4
176
     1
 64
     7
176
     1
 65
   257
176
     1
 75
     1
176
     1
175
     1
176
     1
 42
1.0
176
     1
 92
        0
176
     1
 66
     7
176
     1
 43
1.0
176
     1
 76
     1
176
     1
 77
     6
176
     1
 78
     2
176
     1
 67
     7
176
     1
 79
     5
176
     1
170
     0
176
     1
171
     0
176
     1
290
     0
176
     1
 93
       13
176
     1
 44
0.0
176
     1
173
     0
176
     1
  0
VISUALSTYLE
  5
2E
102
{ACAD_REACTORS
330
2A
102
}
330
2A
100
AcDbVisualStyle
  2
GouraudWithEdges
 70
     3
177
     2
291
     1
 71
     2
176
     1
 72
     2
176
     1
 73
     1
176
     1
 90
        2
176
     1
 40
-0.6
176
     1
 41
30.0
176
     1
 62
     5
 63
     7
421
 16777215
176
     1
 74
     1
176
     1
 91
        4
176
     1
 64
     7
176
     1
 65
   257
176
     1
 75
     1
176
     1
175
     1
176
     1
 42
1.0
176
     1
 92
        0
176
     1
 66
   257
176
     1
 43
1.0
176
     1
 76
     1
176
     1
 77
     6
176
     1
 78
     2
176
     1
 67
     7
176
     1
 79
     5
176
     1
170
     0
176
     1
171
     0
176
     1
290
     0
176
     1
 93
       13
176
     1
 44
0.0
176
     1
173
     0
176
     1
  0
VISUALSTYLE
  5
38
102
{ACAD_REACTORS
330
2A
102
}
330
2A
100
AcDbVisualStyle
  2
Linepattern
 70
    14
177
     2
291
     1
 71
     2
176
     1
 72
     2
176
     1
 73
     0
176
     1
 90
        0
176
     1
 40
-0.6
176
     1
 41
-30.0
176
     1
 62
     5
 63
     7
421
 16777215
176
     1
 74
     1
176
     1
 91
        4
176
     1
 64
     7
176
     1
 65
   257
176
     1
 75
     7
176
     1
175
     7
176
     1
 42
1.0
176
     1
 92
        8
176
     1
 66
     7
176
     1
 43
1.0
176
     1
 76
     1
176
     1
 77
     6
176
     1
 78
     2
176
     1
 67
     7
176
     1
 79
     5
176
     1
170
     0
176
     1
171
     0
176
     1
290
     0
176
     1
 93
        1
176
     1
 44
0.0
176
     1
173
     0
176
     1
  0
VISUALSTYLE
  5
33
102
{ACAD_REACTORS
330
2A
102
}
330
2A
100
AcDbVisualStyle
  2
Realistic
 70
     8
177
     2
291
     0
 71
     2
176
     1
 72
     2
176
     1
 73
     0
176
     1
 90
        0
176
     1
 40
-0.6
176
     1
 41
-30.0
176
     1
 62
     5
 63
     7
421
 16777215
176
     1
 74
     1
176
     1
 91
        0
176
     1
 64
     7
176
     1
 65
   257
176
     1
 75
     1
176
     1
175
     1
176
     1
 42
1.0
176
     1
 92
        8
176
     1
 66
     8
424
  7895160
176
     1
 43
1.0
176
     1
 76
     1
176
     1
 77
     6
176
     1
 78
     2
176
     1
 67
     7
176
     1
 79
     5
176
     1
170
     0
176
     1
171
     0
176
     1
290
     0
176
     1
 93
       13
176
     1
 44
0.0
176
     1
173
     0
176
     1
  0
VISUALSTYLE
  5
37
102
{ACAD_REACTORS
330
2A
102
}
330
2A
100
AcDbVisualStyle
  2
Thicken
 70
    13
177
     2
291
     1
 71
     2
176
     1
 72
     2
176
     1
 73
     0
176
     1
 90
        0
176
     1
 40
-0.6
176
     1
 41
-30.0
176
     1
 62
     5
 63
     7
421
 16777215
176
     1
 74
     1
176
     1
 91
        4
176
     1
 64
     7
176
     1
 65
   257
176
     1
 75
     1
176
     1
175
     1
176
     1
 42
1.0
176
     1
 92
       12
176
     1
 66
     7
176
     1
 43
1.0
176
     1
 76
     1
176
     1
 77
     6
176
     1
 78
     2
176
     1
 67
     7
176
     1
 79
     5
176
     1
170
     0
176
     1
171
     0
176
     1
290
     0
176
     1
 93
        1
176
     1
 44
0.0
176
     1
173
     0
176
     1
  0
ENDSEC
  0
EOF
